ISO-10303-21;
HEADER;
FILE_DESCRIPTION (( 'STEP AP203' ),
    '1' );
FILE_NAME ('250814 STEP 3-400575-00_6810.STEP',
    '2025-08-14T10:18:37',
    ( '' ),
    ( '' ),
    'SwSTEP 2.0',
    'SolidWorks 2024',
    '' );
FILE_SCHEMA (( 'CONFIG_CONTROL_DESIGN' ));
ENDSEC;

DATA;
#1 = CYLINDRICAL_SURFACE ( 'NONE', #139, 44.45000000000000284 ) ;
#2 = ADVANCED_FACE ( 'NONE', ( #182, #39 ), #62, .F. ) ;
#3 = CARTESIAN_POINT ( 'NONE',  ( 6.000000000000000888, 0.000000000000000000, 5.849999999999997868 ) ) ;
#4 = APPLICATION_CONTEXT ( 'configuration controlled 3d designs of mechanical parts and assemblies' ) ;
#5 = EDGE_LOOP ( 'NONE', ( #309 ) ) ;
#6 = ADVANCED_FACE ( 'NONE', ( #322, #91 ), #285, .F. ) ;
#7 = EDGE_LOOP ( 'NONE', ( #311 ) ) ;
#8 = AXIS2_PLACEMENT_3D ( 'NONE', #90, #185, #159 ) ;
#9 =( GEOMETRIC_REPRESENTATION_CONTEXT ( 3 ) GLOBAL_UNCERTAINTY_ASSIGNED_CONTEXT ( ( #236 ) ) GLOBAL_UNIT_ASSIGNED_CONTEXT ( ( #57, #247, #31 ) ) REPRESENTATION_CONTEXT ( 'NONE', 'WORKASPACE' ) );
#10 = CARTESIAN_POINT ( 'NONE',  ( 0.000000000000000000, 0.000000000000000000, 6.349999999999999645 ) ) ;
#11 = PRODUCT_DEFINITION ( 'UNKNOWN', '', #187, #284 ) ;
#12 = CALENDAR_DATE ( 2025, 14, 8 ) ;
#13 = CARTESIAN_POINT ( 'NONE',  ( 0.000000000000000000, 0.000000000000000000, 6.349999999999999645 ) ) ;
#14 = FACE_OUTER_BOUND ( 'NONE', #99, .T. ) ;
#15 = AXIS2_PLACEMENT_3D ( 'NONE', #207, #184, #110 ) ;
#16 = CC_DESIGN_APPROVAL ( #282, ( #180 ) ) ;
#17 = CARTESIAN_POINT ( 'NONE',  ( 0.000000000000000000, 0.000000000000000000, -6.350000000000001421 ) ) ;
#18 = EDGE_CURVE ( 'NONE', #46, #46, #35, .T. ) ;
#19 = DIRECTION ( 'NONE',  ( 1.000000000000000000, 0.000000000000000000, 0.000000000000000000 ) ) ;
#20 = FACE_BOUND ( 'NONE', #78, .T. ) ;
#21 = ADVANCED_FACE ( 'NONE', ( #85, #234 ), #83, .F. ) ;
#22 = CARTESIAN_POINT ( 'NONE',  ( 44.45000000000000284, 0.000000000000000000, -6.350000000000001421 ) ) ;
#23 = CARTESIAN_POINT ( 'NONE',  ( 0.000000000000000000, 0.000000000000000000, 6.350000000000001421 ) ) ;
#24 = DIRECTION ( 'NONE',  ( 1.000000000000000000, 0.000000000000000000, 0.000000000000000000 ) ) ;
#25 = CIRCLE ( 'NONE', #15, 16.00000000000000000 ) ;
#26 = DIRECTION ( 'NONE',  ( 0.000000000000000000, 0.000000000000000000, 1.000000000000000000 ) ) ;
#27 = CARTESIAN_POINT ( 'NONE',  ( 6.000000000000000888, 0.000000000000000000, -4.150000000000003020 ) ) ;
#28 = EDGE_CURVE ( 'NONE', #242, #242, #25, .T. ) ;
#29 = CARTESIAN_POINT ( 'NONE',  ( 38.89999999999999858, 0.000000000000000000, 1.385640646055104064 ) ) ;
#30 = ORIENTED_EDGE ( 'NONE', *, *, #73, .F. ) ;
#31 =( NAMED_UNIT ( * ) SI_UNIT ( $, .STERADIAN. ) SOLID_ANGLE_UNIT ( ) );
#32 = PERSON_AND_ORGANIZATION ( #113, #223 ) ;
#33 = AXIS2_PLACEMENT_3D ( 'NONE', #23, #297, #143 ) ;
#34 = DIRECTION ( 'NONE',  ( 0.000000000000000000, 0.000000000000000000, -1.000000000000000000 ) ) ;
#35 = CIRCLE ( 'NONE', #328, 12.00000000000000000 ) ;
#36 = PERSON_AND_ORGANIZATION ( #113, #223 ) ;
#37 = ORIENTED_EDGE ( 'NONE', *, *, #73, .T. ) ;
#38 = PERSON_AND_ORGANIZATION ( #113, #223 ) ;
#39 = FACE_OUTER_BOUND ( 'NONE', #55, .T. ) ;
#40 = CYLINDRICAL_SURFACE ( 'NONE', #201, 44.45000000000000284 ) ;
#41 = AXIS2_PLACEMENT_3D ( 'NONE', #71, #296, #137 ) ;
#42 = PERSON_AND_ORGANIZATION_ROLE ( 'classification_officer' ) ;
#43 = DIRECTION ( 'NONE',  ( -0.000000000000000000, -0.000000000000000000, 1.000000000000000000 ) ) ;
#44 = PRODUCT_DEFINITION_SHAPE ( 'NONE', 'NONE',  #11 ) ;
#45 = DIRECTION ( 'NONE',  ( -0.000000000000000000, -0.000000000000000000, 1.000000000000000000 ) ) ;
#46 = VERTEX_POINT ( 'NONE', #189 ) ;
#47 = AXIS2_PLACEMENT_3D ( 'NONE', #160, #267, #48 ) ;
#48 = DIRECTION ( 'NONE',  ( 1.000000000000000000, 0.000000000000000000, 0.000000000000000000 ) ) ;
#49 = FACE_BOUND ( 'NONE', #255, .T. ) ;
#50 = DIRECTION ( 'NONE',  ( -0.000000000000000000, -0.000000000000000000, 1.000000000000000000 ) ) ;
#51 = APPLICATION_PROTOCOL_DEFINITION ( 'international standard', 'config_control_design', 1994, #4 ) ;
#52 = DATE_AND_TIME ( #276, #227 ) ;
#53 = ADVANCED_FACE ( 'NONE', ( #262, #14 ), #40, .T. ) ;
#54 = APPLICATION_CONTEXT ( 'configuration controlled 3d designs of mechanical parts and assemblies' ) ;
#55 = EDGE_LOOP ( 'NONE', ( #304 ) ) ;
#56 = CIRCLE ( 'NONE', #33, 44.45000000000000284 ) ;
#57 =( LENGTH_UNIT ( ) NAMED_UNIT ( * ) SI_UNIT ( .MILLI., .METRE. ) );
#58 = PERSON_AND_ORGANIZATION ( #113, #223 ) ;
#59 = EDGE_LOOP ( 'NONE', ( #30 ) ) ;
#60 = ADVANCED_FACE ( 'NONE', ( #135, #256 ), #96, .T. ) ;
#61 = ORIENTED_EDGE ( 'NONE', *, *, #28, .T. ) ;
#62 = CYLINDRICAL_SURFACE ( 'NONE', #158, 16.00000000000000000 ) ;
#63 = APPROVAL_PERSON_ORGANIZATION ( #32, #287, #84 ) ;
#64 = DATE_AND_TIME ( #181, #195 ) ;
#65 = DIRECTION ( 'NONE',  ( -0.000000000000000000, -0.000000000000000000, 1.000000000000000000 ) ) ;
#66 = DIRECTION ( 'NONE',  ( 1.000000000000000000, 0.000000000000000000, 0.000000000000000000 ) ) ;
#67 = CALENDAR_DATE ( 2025, 14, 8 ) ;
#68 = DIRECTION ( 'NONE',  ( 1.000000000000000000, 0.000000000000000000, 0.000000000000000000 ) ) ;
#69 = DIRECTION ( 'NONE',  ( -0.000000000000000000, -0.000000000000000000, 1.000000000000000000 ) ) ;
#70 = DIRECTION ( 'NONE',  ( -0.000000000000000000, -0.000000000000000000, 1.000000000000000000 ) ) ;
#71 = CARTESIAN_POINT ( 'NONE',  ( 0.000000000000000000, 0.000000000000000000, -4.150000000000003020 ) ) ;
#72 = FACE_OUTER_BOUND ( 'NONE', #291, .T. ) ;
#73 = EDGE_CURVE ( 'NONE', #138, #138, #75, .T. ) ;
#74 = FACE_OUTER_BOUND ( 'NONE', #199, .T. ) ;
#75 = CIRCLE ( 'NONE', #191, 44.45000000000000284 ) ;
#76 = PERSON_AND_ORGANIZATION_ROLE ( 'design_owner' ) ;
#77 = ORIENTED_EDGE ( 'NONE', *, *, #28, .F. ) ;
#78 = EDGE_LOOP ( 'NONE', ( #155 ) ) ;
#79 = CIRCLE ( 'NONE', #263, 6.000000000000000888 ) ;
#80 = AXIS2_PLACEMENT_3D ( 'NONE', #188, #219, #295 ) ;
#81 = ORIENTED_EDGE ( 'NONE', *, *, #321, .F. ) ;
#82 = APPROVAL_DATE_TIME ( #109, #287 ) ;
#83 = PLANE ( 'NONE',  #120 ) ;
#84 = APPROVAL_ROLE ( '' ) ;
#85 = FACE_BOUND ( 'NONE', #250, .T. ) ;
#86 = ADVANCED_FACE ( 'NONE', ( #152, #112 ), #237, .F. ) ;
#87 = CC_DESIGN_APPROVAL ( #173, ( #11 ) ) ;
#88 = DATE_AND_TIME ( #12, #303 ) ;
#89 = DIRECTION ( 'NONE',  ( -1.000000000000000000, 0.000000000000000000, -0.000000000000000000 ) ) ;
#90 = CARTESIAN_POINT ( 'NONE',  ( 0.000000000000000000, 0.000000000000000000, 5.849999999999997868 ) ) ;
#91 = FACE_OUTER_BOUND ( 'NONE', #7, .T. ) ;
#92 = AXIS2_PLACEMENT_3D ( 'NONE', #300, #70, #270 ) ;
#93 = ADVANCED_FACE ( 'NONE', ( #315, #209 ), #320, .T. ) ;
#94 = DIRECTION ( 'NONE',  ( -0.000000000000000000, -0.000000000000000000, 1.000000000000000000 ) ) ;
#95 = CARTESIAN_POINT ( 'NONE',  ( 0.000000000000000000, 0.000000000000000000, 6.350000000000000533 ) ) ;
#96 = CONICAL_SURFACE ( 'NONE', #316, 44.45000000000000284, 1.047197551196596743 ) ;
#97 = CARTESIAN_POINT ( 'NONE',  ( 0.000000000000000000, 25.99668878408266082, -6.350000000000001421 ) ) ;
#98 = DIRECTION ( 'NONE',  ( 1.000000000000000000, 0.000000000000000000, 0.000000000000000000 ) ) ;
#99 = EDGE_LOOP ( 'NONE', ( #37 ) ) ;
#100 = CARTESIAN_POINT ( 'NONE',  ( 44.45000000000000284, 0.000000000000000000, -4.589934640057537152 ) ) ;
#101 = ORIENTED_EDGE ( 'NONE', *, *, #321, .T. ) ;
#102 = DIRECTION ( 'NONE',  ( 0.000000000000000000, 0.000000000000000000, 1.000000000000000000 ) ) ;
#103 = CC_DESIGN_PERSON_AND_ORGANIZATION_ASSIGNMENT ( #36, #42, ( #180 ) ) ;
#104 = CIRCLE ( 'NONE', #127, 38.89999999999999858 ) ;
#105 = APPROVAL_STATUS ( 'not_yet_approved' ) ;
#106 = EDGE_LOOP ( 'NONE', ( #266 ) ) ;
#107 = COORDINATED_UNIVERSAL_TIME_OFFSET ( 2, 0, .AHEAD. ) ;
#108 = EDGE_LOOP ( 'NONE', ( #307 ) ) ;
#109 = DATE_AND_TIME ( #129, #241 ) ;
#110 = DIRECTION ( 'NONE',  ( 1.000000000000000000, 0.000000000000000000, 0.000000000000000000 ) ) ;
#111 = EDGE_LOOP ( 'NONE', ( #175 ) ) ;
#112 = FACE_OUTER_BOUND ( 'NONE', #177, .T. ) ;
#113 = PERSON ( 'UNSPECIFIED', 'UNSPECIFIED', 'UNSPECIFIED', ('UNSPECIFIED'), ('UNSPECIFIED'), ('UNSPECIFIED') ) ;
#114 = DIRECTION ( 'NONE',  ( -0.000000000000000000, -0.000000000000000000, -1.000000000000000000 ) ) ;
#115 = PLANE ( 'NONE',  #41 ) ;
#116 = CIRCLE ( 'NONE', #121, 44.45000000000000284 ) ;
#117 = DIRECTION ( 'NONE',  ( -0.000000000000000000, -0.000000000000000000, 1.000000000000000000 ) ) ;
#118 = CARTESIAN_POINT ( 'NONE',  ( 0.000000000000000000, 0.000000000000000000, 4.589934640057540705 ) ) ;
#119 = CARTESIAN_POINT ( 'NONE',  ( 0.000000000000000000, 0.000000000000000000, 6.349999999999999645 ) ) ;
#120 = AXIS2_PLACEMENT_3D ( 'NONE', #290, #179, #89 ) ;
#121 = AXIS2_PLACEMENT_3D ( 'NONE', #268, #69, #161 ) ;
#122 = DIRECTION ( 'NONE',  ( 1.000000000000000000, 0.000000000000000000, 0.000000000000000000 ) ) ;
#123 = APPROVAL_STATUS ( 'not_yet_approved' ) ;
#124 = ORIENTED_EDGE ( 'NONE', *, *, #232, .F. ) ;
#125 = PERSON_AND_ORGANIZATION ( #113, #223 ) ;
#126 = EDGE_LOOP ( 'NONE', ( #261 ) ) ;
#127 = AXIS2_PLACEMENT_3D ( 'NONE', #324, #45, #192 ) ;
#128 = EDGE_LOOP ( 'NONE', ( #314 ) ) ;
#129 = CALENDAR_DATE ( 2025, 14, 8 ) ;
#130 = CIRCLE ( 'NONE', #80, 6.000000000000000888 ) ;
#131 = DIRECTION ( 'NONE',  ( 1.000000000000000000, 0.000000000000000000, 0.000000000000000000 ) ) ;
#132 = COORDINATED_UNIVERSAL_TIME_OFFSET ( 2, 0, .AHEAD. ) ;
#133 = DIRECTION ( 'NONE',  ( -0.000000000000000000, -0.000000000000000000, 1.000000000000000000 ) ) ;
#134 = CARTESIAN_POINT ( 'NONE',  ( 0.000000000000000000, 0.000000000000000000, 5.849999999999997868 ) ) ;
#135 = FACE_BOUND ( 'NONE', #128, .T. ) ;
#136 = CARTESIAN_POINT ( 'NONE',  ( 0.000000000000000000, 0.000000000000000000, -4.589934640057537152 ) ) ;
#137 = DIRECTION ( 'NONE',  ( 1.000000000000000000, 0.000000000000000000, -0.000000000000000000 ) ) ;
#138 = VERTEX_POINT ( 'NONE', #22 ) ;
#139 = AXIS2_PLACEMENT_3D ( 'NONE', #119, #272, #164 ) ;
#140 = CC_DESIGN_PERSON_AND_ORGANIZATION_ASSIGNMENT ( #230, #265, ( #187 ) ) ;
#141 = PLANE ( 'NONE',  #269 ) ;
#142 = DIRECTION ( 'NONE',  ( 1.000000000000000000, 0.000000000000000000, 0.000000000000000000 ) ) ;
#143 = DIRECTION ( 'NONE',  ( 1.000000000000000000, 0.000000000000000000, 0.000000000000000000 ) ) ;
#144 = CARTESIAN_POINT ( 'NONE',  ( 12.00000000000000000, 0.000000000000000000, -6.350000000000003197 ) ) ;
#145 = ORIENTED_EDGE ( 'NONE', *, *, #18, .F. ) ;
#146 = PERSON_AND_ORGANIZATION ( #113, #223 ) ;
#147 = CARTESIAN_POINT ( 'NONE',  ( 16.00000000000000000, 0.000000000000000000, 6.350000000000000533 ) ) ;
#148 = ORIENTED_EDGE ( 'NONE', *, *, #325, .T. ) ;
#149 = DIRECTION ( 'NONE',  ( 1.000000000000000000, 0.000000000000000000, 0.000000000000000000 ) ) ;
#150 = CC_DESIGN_SECURITY_CLASSIFICATION ( #180, ( #187 ) ) ;
#151 = DATE_AND_TIME ( #67, #275 ) ;
#152 = FACE_OUTER_BOUND ( 'NONE', #106, .T. ) ;
#153 = DATE_TIME_ROLE ( 'classification_date' ) ;
#154 = EDGE_LOOP ( 'NONE', ( #252 ) ) ;
#155 = ORIENTED_EDGE ( 'NONE', *, *, #271, .T. ) ;
#156 = CC_DESIGN_PERSON_AND_ORGANIZATION_ASSIGNMENT ( #58, #76, ( #259 ) ) ;
#157 = COORDINATED_UNIVERSAL_TIME_OFFSET ( 2, 0, .AHEAD. ) ;
#158 = AXIS2_PLACEMENT_3D ( 'NONE', #10, #43, #66 ) ;
#159 = DIRECTION ( 'NONE',  ( 1.000000000000000000, 0.000000000000000000, -0.000000000000000000 ) ) ;
#160 = CARTESIAN_POINT ( 'NONE',  ( 0.000000000000000000, 0.000000000000000000, -6.350000000000003197 ) ) ;
#161 = DIRECTION ( 'NONE',  ( 1.000000000000000000, 0.000000000000000000, 0.000000000000000000 ) ) ;
#162 = CARTESIAN_POINT ( 'NONE',  ( 0.000000000000000000, 0.000000000000000000, -4.150000000000003020 ) ) ;
#163 = AXIS2_PLACEMENT_3D ( 'NONE', #273, #50, #122 ) ;
#164 = DIRECTION ( 'NONE',  ( 1.000000000000000000, 0.000000000000000000, 0.000000000000000000 ) ) ;
#165 = FACE_OUTER_BOUND ( 'NONE', #292, .T. ) ;
#166 = ADVANCED_FACE ( 'NONE', ( #299, #243 ), #141, .F. ) ;
#167 = CARTESIAN_POINT ( 'NONE',  ( 44.45000000000000284, 0.000000000000000000, 6.350000000000001421 ) ) ;
#168 = APPROVAL_PERSON_ORGANIZATION ( #319, #282, #258 ) ;
#169 = COORDINATED_UNIVERSAL_TIME_OFFSET ( 2, 0, .AHEAD. ) ;
#170 = ORIENTED_EDGE ( 'NONE', *, *, #301, .T. ) ;
#171 = VERTEX_POINT ( 'NONE', #29 ) ;
#172 = EDGE_LOOP ( 'NONE', ( #148 ) ) ;
#173 = APPROVAL ( #123, 'UNSPECIFIED' ) ;
#174 = VERTEX_POINT ( 'NONE', #280 ) ;
#175 = ORIENTED_EDGE ( 'NONE', *, *, #218, .F. ) ;
#176 = AXIS2_PLACEMENT_3D ( 'NONE', #13, #205, #68 ) ;
#177 = EDGE_LOOP ( 'NONE', ( #145 ) ) ;
#178 = EDGE_CURVE ( 'NONE', #214, #214, #288, .T. ) ;
#179 = DIRECTION ( 'NONE',  ( 0.000000000000000000, 0.000000000000000000, -1.000000000000000000 ) ) ;
#180 = SECURITY_CLASSIFICATION ( '', '', #233 ) ;
#181 = CALENDAR_DATE ( 2025, 14, 8 ) ;
#182 = FACE_OUTER_BOUND ( 'NONE', #229, .T. ) ;
#183 = PERSON_AND_ORGANIZATION_ROLE ( 'design_supplier' ) ;
#184 = DIRECTION ( 'NONE',  ( 0.000000000000000000, 0.000000000000000000, 1.000000000000000000 ) ) ;
#185 = DIRECTION ( 'NONE',  ( 0.000000000000000000, 0.000000000000000000, 1.000000000000000000 ) ) ;
#186 = FACE_OUTER_BOUND ( 'NONE', #126, .T. ) ;
#187 = PRODUCT_DEFINITION_FORMATION_WITH_SPECIFIED_SOURCE ( 'ANY', '', #259, .NOT_KNOWN. ) ;
#188 = CARTESIAN_POINT ( 'NONE',  ( 0.000000000000000000, 0.000000000000000000, 5.849999999999997868 ) ) ;
#189 = CARTESIAN_POINT ( 'NONE',  ( 12.00000000000000000, 0.000000000000000000, -4.150000000000003020 ) ) ;
#190 = DIRECTION ( 'NONE',  ( 0.000000000000000000, -0.000000000000000000, 1.000000000000000000 ) ) ;
#191 = AXIS2_PLACEMENT_3D ( 'NONE', #17, #133, #131 ) ;
#192 = DIRECTION ( 'NONE',  ( 1.000000000000000000, 0.000000000000000000, 0.000000000000000000 ) ) ;
#193 = ADVANCED_FACE ( 'NONE', ( #20, #72 ), #115, .F. ) ;
#194 = VERTEX_POINT ( 'NONE', #167 ) ;
#195 = LOCAL_TIME ( 13, 18, 37.00000000000000000, #107 ) ;
#196 = VERTEX_POINT ( 'NONE', #3 ) ;
#197 = EDGE_CURVE ( 'NONE', #308, #308, #257, .T. ) ;
#198 = ORIENTED_EDGE ( 'NONE', *, *, #178, .T. ) ;
#199 = EDGE_LOOP ( 'NONE', ( #124 ) ) ;
#200 = ORIENTED_EDGE ( 'NONE', *, *, #197, .F. ) ;
#201 = AXIS2_PLACEMENT_3D ( 'NONE', #286, #65, #149 ) ;
#202 = ADVANCED_FACE ( 'NONE', ( #213, #186 ), #1, .T. ) ;
#203 = APPROVAL_STATUS ( 'not_yet_approved' ) ;
#204 = DIRECTION ( 'NONE',  ( -1.000000000000000000, 0.000000000000000000, 0.000000000000000000 ) ) ;
#205 = DIRECTION ( 'NONE',  ( -0.000000000000000000, -0.000000000000000000, 1.000000000000000000 ) ) ;
#206 = CONICAL_SURFACE ( 'NONE', #92, 38.89999999999999858, 1.047197551196596521 ) ;
#207 = CARTESIAN_POINT ( 'NONE',  ( 0.000000000000000000, 0.000000000000000000, 5.849999999999997868 ) ) ;
#208 = CC_DESIGN_PERSON_AND_ORGANIZATION_ASSIGNMENT ( #38, #183, ( #187 ) ) ;
#209 = FACE_BOUND ( 'NONE', #154, .T. ) ;
#210 = EDGE_LOOP ( 'NONE', ( #81 ) ) ;
#211 = CLOSED_SHELL ( 'NONE', ( #2, #86, #166, #53, #60, #248, #239, #202, #21, #193, #93, #6 ) ) ;
#212 = AXIS2_PLACEMENT_3D ( 'NONE', #245, #94, #24 ) ;
#213 = FACE_OUTER_BOUND ( 'NONE', #111, .T. ) ;
#214 = VERTEX_POINT ( 'NONE', #326 ) ;
#215 = DIRECTION ( 'NONE',  ( 1.000000000000000000, 0.000000000000000000, 0.000000000000000000 ) ) ;
#216 = DIRECTION ( 'NONE',  ( -0.000000000000000000, -0.000000000000000000, 1.000000000000000000 ) ) ;
#217 = AXIS2_PLACEMENT_3D ( 'NONE', #95, #117, #142 ) ;
#218 = EDGE_CURVE ( 'NONE', #194, #194, #56, .T. ) ;
#219 = DIRECTION ( 'NONE',  ( 0.000000000000000000, 0.000000000000000000, 1.000000000000000000 ) ) ;
#220 = EDGE_LOOP ( 'NONE', ( #170 ) ) ;
#221 = PERSON_AND_ORGANIZATION_ROLE ( 'creator' ) ;
#222 = EDGE_LOOP ( 'NONE', ( #61 ) ) ;
#223 = ORGANIZATION ( 'UNSPECIFIED', 'UNSPECIFIED', '' ) ;
#224 = VERTEX_POINT ( 'NONE', #27 ) ;
#225 = VERTEX_POINT ( 'NONE', #100 ) ;
#226 = ORIENTED_EDGE ( 'NONE', *, *, #18, .T. ) ;
#227 = LOCAL_TIME ( 13, 18, 37.00000000000000000, #169 ) ;
#228 = SHAPE_DEFINITION_REPRESENTATION ( #44, #251 ) ;
#229 = EDGE_LOOP ( 'NONE', ( #77 ) ) ;
#230 = PERSON_AND_ORGANIZATION ( #113, #223 ) ;
#231 = CARTESIAN_POINT ( 'NONE',  ( 0.000000000000000000, 0.000000000000000000, -4.150000000000003020 ) ) ;
#232 = EDGE_CURVE ( 'NONE', #171, #171, #104, .T. ) ;
#233 = SECURITY_CLASSIFICATION_LEVEL ( 'unclassified' ) ;
#234 = FACE_OUTER_BOUND ( 'NONE', #5, .T. ) ;
#235 = DIRECTION ( 'NONE',  ( -1.000000000000000000, 0.000000000000000000, 0.000000000000000000 ) ) ;
#236 = UNCERTAINTY_MEASURE_WITH_UNIT (LENGTH_MEASURE( 1.000000000000000082E-05 ), #57, 'distance_accuracy_value', 'NONE');
#237 = CYLINDRICAL_SURFACE ( 'NONE', #176, 12.00000000000000000 ) ;
#238 = CARTESIAN_POINT ( 'NONE',  ( 16.00000000000000000, 0.000000000000000000, 5.849999999999997868 ) ) ;
#239 = ADVANCED_FACE ( 'NONE', ( #327, #49 ), #206, .T. ) ;
#240 = AXIS2_PLACEMENT_3D ( 'NONE', #134, #318, #204 ) ;
#241 = LOCAL_TIME ( 13, 18, 37.00000000000000000, #132 ) ;
#242 = VERTEX_POINT ( 'NONE', #238 ) ;
#243 = FACE_BOUND ( 'NONE', #172, .T. ) ;
#244 = EDGE_CURVE ( 'NONE', #174, #174, #281, .T. ) ;
#245 = CARTESIAN_POINT ( 'NONE',  ( 0.000000000000000000, 0.000000000000000000, -1.385640646055102287 ) ) ;
#246 = DIRECTION ( 'NONE',  ( 1.000000000000000000, 0.000000000000000000, 0.000000000000000000 ) ) ;
#247 =( NAMED_UNIT ( * ) PLANE_ANGLE_UNIT ( ) SI_UNIT ( $, .RADIAN. ) );
#248 = ADVANCED_FACE ( 'NONE', ( #74, #165 ), #274, .F. ) ;
#249 = APPROVAL_DATE_TIME ( #52, #173 ) ;
#250 = EDGE_LOOP ( 'NONE', ( #200 ) ) ;
#251 = ADVANCED_BREP_SHAPE_REPRESENTATION ( '250814 STEP 3-400575-00_6810', ( #305, #294 ), #9 ) ;
#252 = ORIENTED_EDGE ( 'NONE', *, *, #301, .F. ) ;
#253 = MECHANICAL_CONTEXT ( 'NONE', #54, 'mechanical' ) ;
#254 = PRODUCT_RELATED_PRODUCT_CATEGORY ( 'detail', '', ( #259 ) ) ;
#255 = EDGE_LOOP ( 'NONE', ( #283 ) ) ;
#256 = FACE_OUTER_BOUND ( 'NONE', #278, .T. ) ;
#257 = CIRCLE ( 'NONE', #217, 16.00000000000000000 ) ;
#258 = APPROVAL_ROLE ( '' ) ;
#259 = PRODUCT ( '250814 STEP 3-400575-00_6810', '250814 STEP 3-400575-00_6810', '', ( #253 ) ) ;
#260 = APPROVAL_DATE_TIME ( #88, #282 ) ;
#261 = ORIENTED_EDGE ( 'NONE', *, *, #244, .T. ) ;
#262 = FACE_OUTER_BOUND ( 'NONE', #210, .T. ) ;
#263 = AXIS2_PLACEMENT_3D ( 'NONE', #162, #26, #246 ) ;
#264 = CC_DESIGN_APPROVAL ( #287, ( #187 ) ) ;
#265 = PERSON_AND_ORGANIZATION_ROLE ( 'creator' ) ;
#266 = ORIENTED_EDGE ( 'NONE', *, *, #325, .F. ) ;
#267 = DIRECTION ( 'NONE',  ( -0.000000000000000000, -0.000000000000000000, 1.000000000000000000 ) ) ;
#268 = CARTESIAN_POINT ( 'NONE',  ( 0.000000000000000000, 0.000000000000000000, -4.589934640057537152 ) ) ;
#269 = AXIS2_PLACEMENT_3D ( 'NONE', #97, #190, #215 ) ;
#270 = DIRECTION ( 'NONE',  ( 1.000000000000000000, 0.000000000000000000, 0.000000000000000000 ) ) ;
#271 = EDGE_CURVE ( 'NONE', #224, #224, #79, .T. ) ;
#272 = DIRECTION ( 'NONE',  ( -0.000000000000000000, -0.000000000000000000, 1.000000000000000000 ) ) ;
#273 = CARTESIAN_POINT ( 'NONE',  ( 0.000000000000000000, 0.000000000000000000, 0.000000000000000000 ) ) ;
#274 = TOROIDAL_SURFACE ( 'NONE', #163, 39.69999999999999574, 1.600000000000001865 ) ;
#275 = LOCAL_TIME ( 13, 18, 37.00000000000000000, #157 ) ;
#276 = CALENDAR_DATE ( 2025, 14, 8 ) ;
#277 = CC_DESIGN_PERSON_AND_ORGANIZATION_ASSIGNMENT ( #125, #221, ( #11 ) ) ;
#278 = EDGE_LOOP ( 'NONE', ( #101 ) ) ;
#279 = VERTEX_POINT ( 'NONE', #144 ) ;
#280 = CARTESIAN_POINT ( 'NONE',  ( 44.45000000000000284, 0.000000000000000000, 4.589934640057540705 ) ) ;
#281 = CIRCLE ( 'NONE', #293, 44.45000000000000284 ) ;
#282 = APPROVAL ( #105, 'UNSPECIFIED' ) ;
#283 = ORIENTED_EDGE ( 'NONE', *, *, #232, .T. ) ;
#284 = DESIGN_CONTEXT ( 'detailed design', #4, 'design' ) ;
#285 = CYLINDRICAL_SURFACE ( 'NONE', #240, 6.000000000000000888 ) ;
#286 = CARTESIAN_POINT ( 'NONE',  ( 0.000000000000000000, 0.000000000000000000, 6.349999999999999645 ) ) ;
#287 = APPROVAL ( #203, 'UNSPECIFIED' ) ;
#288 = CIRCLE ( 'NONE', #212, 38.89999999999999858 ) ;
#289 = APPROVAL_PERSON_ORGANIZATION ( #146, #173, #302 ) ;
#290 = CARTESIAN_POINT ( 'NONE',  ( 0.000000000000000000, 23.52000575465030252, 6.350000000000001421 ) ) ;
#291 = EDGE_LOOP ( 'NONE', ( #226 ) ) ;
#292 = EDGE_LOOP ( 'NONE', ( #198 ) ) ;
#293 = AXIS2_PLACEMENT_3D ( 'NONE', #118, #216, #329 ) ;
#294 = AXIS2_PLACEMENT_3D ( 'NONE', #306, #102, #98 ) ;
#295 = DIRECTION ( 'NONE',  ( 1.000000000000000000, 0.000000000000000000, 0.000000000000000000 ) ) ;
#296 = DIRECTION ( 'NONE',  ( 0.000000000000000000, 0.000000000000000000, 1.000000000000000000 ) ) ;
#297 = DIRECTION ( 'NONE',  ( -0.000000000000000000, -0.000000000000000000, 1.000000000000000000 ) ) ;
#298 = CC_DESIGN_DATE_AND_TIME_ASSIGNMENT ( #151, #317, ( #11 ) ) ;
#299 = FACE_OUTER_BOUND ( 'NONE', #59, .T. ) ;
#300 = CARTESIAN_POINT ( 'NONE',  ( 0.000000000000000000, 0.000000000000000000, 1.385640646055104064 ) ) ;
#301 = EDGE_CURVE ( 'NONE', #196, #196, #130, .T. ) ;
#302 = APPROVAL_ROLE ( '' ) ;
#303 = LOCAL_TIME ( 13, 18, 37.00000000000000000, #313 ) ;
#304 = ORIENTED_EDGE ( 'NONE', *, *, #197, .T. ) ;
#305 = MANIFOLD_SOLID_BREP ( 'Boss-Extrude1', #211 ) ;
#306 = CARTESIAN_POINT ( 'NONE',  ( 0.000000000000000000, 0.000000000000000000, 0.000000000000000000 ) ) ;
#307 = ORIENTED_EDGE ( 'NONE', *, *, #244, .F. ) ;
#308 = VERTEX_POINT ( 'NONE', #147 ) ;
#309 = ORIENTED_EDGE ( 'NONE', *, *, #218, .T. ) ;
#310 = APPLICATION_PROTOCOL_DEFINITION ( 'international standard', 'config_control_design', 1994, #54 ) ;
#311 = ORIENTED_EDGE ( 'NONE', *, *, #271, .F. ) ;
#312 = CC_DESIGN_DATE_AND_TIME_ASSIGNMENT ( #64, #153, ( #180 ) ) ;
#313 = COORDINATED_UNIVERSAL_TIME_OFFSET ( 2, 0, .AHEAD. ) ;
#314 = ORIENTED_EDGE ( 'NONE', *, *, #178, .F. ) ;
#315 = FACE_OUTER_BOUND ( 'NONE', #222, .T. ) ;
#316 = AXIS2_PLACEMENT_3D ( 'NONE', #136, #34, #235 ) ;
#317 = DATE_TIME_ROLE ( 'creation_date' ) ;
#318 = DIRECTION ( 'NONE',  ( -0.000000000000000000, -0.000000000000000000, -1.000000000000000000 ) ) ;
#319 = PERSON_AND_ORGANIZATION ( #113, #223 ) ;
#320 = PLANE ( 'NONE',  #8 ) ;
#321 = EDGE_CURVE ( 'NONE', #225, #225, #116, .T. ) ;
#322 = FACE_OUTER_BOUND ( 'NONE', #220, .T. ) ;
#323 = CIRCLE ( 'NONE', #47, 12.00000000000000000 ) ;
#324 = CARTESIAN_POINT ( 'NONE',  ( 0.000000000000000000, 0.000000000000000000, 1.385640646055104064 ) ) ;
#325 = EDGE_CURVE ( 'NONE', #279, #279, #323, .T. ) ;
#326 = CARTESIAN_POINT ( 'NONE',  ( 38.89999999999999858, 0.000000000000000000, -1.385640646055102287 ) ) ;
#327 = FACE_OUTER_BOUND ( 'NONE', #108, .T. ) ;
#328 = AXIS2_PLACEMENT_3D ( 'NONE', #231, #114, #19 ) ;
#329 = DIRECTION ( 'NONE',  ( 1.000000000000000000, 0.000000000000000000, 0.000000000000000000 ) ) ;
ENDSEC;
END-ISO-10303-21;
